Re: Angel of forever sleep

Posted by Paul E. Berick on Thu, 10/16/03 - 08:20:47.

: Looking for tablature for Marcy Playground's Angel of Forever Sleep

I actually tabbed it last night so i wouldn't forget it. I picked it up by ear, so i'm really proud of myself.
I wrote the tab just to remind me of the chords, but it should help ya

Angel of Forever Sleep
Drop D
VERSES
/ / repeat till..
-|--x---------------------0--------------------------
-|--8-----------------9---1--------------------------
-|--7-------4h5p4-----8---0--------------------------
-|--5-------------5---7---2--------------------------
-|--5-----------------7---3--------------------------
-|--5-----------------7------------------------------

Bridge: |---- repeat -------------------------|
-|-------------------------------------------------
-|------------------------3------------------------
-|-----------------------2-------------------------
-|--5---4---2------5----0------2h3--2-3-/5/10-9----
-|--5---4---2------5----0------2h3--2-3-/5/10-9----
-|--5---4---2------5----0------2h3--2-3-/5/10-9----

Quiet part:

D F C G
-|----------2-----------------------------------------------
-|-----3----3------------------1------------------------8---
-|-0h2------2-[x2]-0h2-0--2-0h2-2-0----------0----------7---
-|-------0--0------------3-3-----------2-0h2---2-0---5--5---
-|-----------------------------------3--3------------5--5---
-|---------------------------------------------------5------

Hello
I have come from Heaven.
Down
On these things, my Angel Wings.
Hold to them
Tight.

Time for you to wake, (wake up, John) up.
Sleep, sleep, sleepy head.

Ride, ride, ride
To a place of Mercy.
Ride, ride, ride
On these things, my Angel Wings.
Hold to them
Tight.

It's time to go, good night.
Good night, good night, good night.

In my little world of mine,
Float away, less the fears you hold.
Hold fast to the Earth,
Forever to Home.

Hello,
Hello,
Time to go, goodnight.
Goodnight.

Post new comment

The content of this field is kept private and will not be shown publicly.
CAPTCHA
This question is for testing whether you are a human visitor and to prevent automated spam submissions. Do not include any spaces in your answer.
Image CAPTCHA
Copy the characters (respecting upper/lower case) from the image.

Contact | Advertise | Contents | Privacy Policy | Forum

This site is published by Hitsquad Pty Ltd. Copyright © 1999 - 2017 , All Rights Reserved.