hi pakistani....try this for laree chotee and waiting for your r

Advertisement
Posted by sonali on Wed, 06/06/07 - 09:49:40.

(1)
e|-----0--3-1-0---------0-0-5-3\1-0-----0-3/5-3-1---------|
B|-1-3----------3\1-3----------------1-3-----------3\1-0---|
G|------------------------------------------------------------2-|

C
kismat ka khel hai saara
Am
phirta tha main awaara
C......................F.......G
ye kya se kya ho gaya

C
chaar din ki zindagani
Am
har pal ek nayi kahaani
C............................F.......G
kya tha main kya ban gaya

CHORUS:
C
kya hua jo laree chooti
Am
jeevan ki gaari looti
C..............................F.......G
khwab hai to mujhko na jaga

C
zindagi ek pal mein saali
Am
yun palat gayi hamari
C.............................F.......G
jhoot hai to mujhko na bata

e|-----0--3-1-0---------0-0-5-3\1-0-----0-3/5-3-1---------|
B|-1-3----------3\1-3----------------1-3-----------3\1-0---| x2
G|------------------------------------------------------------2-|

C
karlo jo bhi karna hai
Am
hota hai jo hona hai
C...................F.......G
guzra to pal ye fir na aayega

C
kya bura hai kya bhala hai
Am
waqt hi shayad khuda hai
C.....................F.......G
ho jaane do phir dekha jayega

CHORUS:
C
kya hua jo laree chooti
Am
jeevan ki gaari looti
C..............................F.......G
khwab hai to mujhko na jaga

C
zindagi ek pal mein saali
Am
yun palat gayi hamari
C.............................F.......G
jhoot hai to mujhko na bata

e|-----0--3-1-0---------0-0-5-3\1-0-----0-3/5-3-1---------|
B|-1-3----------3\1-3----------------1-3-----------3\1-0---| x2
G|------------------------------------------------------------2-|

hope this is correct

(2)

INTRO

e-----------0-2-4-7-5-4--0-2-4-9-7-5--0-2-4-7-5-4--2-2-0----------|
B-----------------------------------------------------------------|
G-----------------------------------------------------------------|
D-----------------------------------------------------------------|
A-----------------------------------------------------------------|
E-----------------------------------------------------------------|

VERSES:

(Cm)
kismat ka khail hai sara
phirta tha main aawar
ye kia se kia hogaya

(Cm)
char din ki zindagani
harpal ik nai kahani
kia tha main kia ban gaya

(Dm)
kia hua jo laree chootee
jeewan ki gari lootee
khuab to mujhko na jaga

zindagi ik pal main sari
yun plat gai hamari
jhoot hai to mujhko na bata

e-----------0-2-4-7-5-4--0-2-4-9-7-5--0-2-4-7-5-4--2-2-0----------|
B-----------------------------------------------------------------|
G-----------------------------------------------------------------|
D-----------------------------------------------------------------|
A-----------------------------------------------------------------|
E-----------------------------------------------------------------|

Comment viewing options

Select your preferred way to display the comments and click "Save settings" to activate your changes.

Re: hi pakistani....try this for laree chotee and waiting for your reply........i m from india....

wow.. wata song.. any how.. can u plz tell me the name of the old song(pakistani one)..plz reply me ASAP..
thanku

Post new comment

The content of this field is kept private and will not be shown publicly.
CAPTCHA
This question is for testing whether you are a human visitor and to prevent automated spam submissions. Do not include any spaces in your answer.
Image CAPTCHA
Copy the characters (respecting upper/lower case) from the image.

Contact | Advertise | Contents | Privacy Policy

This site is published by Hitsquad Pty Ltd. Copyright © 1999 - 2014 , All Rights Reserved.