Love theme from Cinema Paradiso

Posted by Claudio Hevia on Sun, 08/29/04 - 06:21:23.

Plaese i need Chords/tabs for this piece played by Pat Matheney. Even charts would be apreciated. I love it.
Author/Artist: Staind
: Title: Outside - Studio Version
: Album: Break The Cycle
: Transcribed by: Gizmo Advanced
: Email: appey9000@yahoo.com

: Tuning: Acoustic Guitar: Down a half step
: Electric Guitar: Drop D and down a half step

: ------------------------------------------------------------------------------
: ------------------------------------------------------------------------------
: -9-9-99-9-7-7-77-7------------------------------------------------------------
: -9-9-99-9-7-7-77-7-5-5-55-5-7-7-77-7------------------------------------------
: -7-7-77-7-5-5-55-5-5-5-55-5-7-7-77-7------------------------------------------
: -------------------3-3-33-3-5-5-55-5------------------------------------------
: Intro and Verse: Acoustic

: ------------------------------------------------------------------------------
: ------------------------------------------------------------------------------
: -16----16----17-16----14----14----16-14----14----12----14-12----16-12---------
: ----14----14-------14----14----14-------14----12----12-------12-------9/10----
: ------------------------------------------------------------------------------
: ------------------------------------------------------------------------------
:

: ------------------------------------------------------------------------------
: ------------------------------------------------------------------------------
: ----12------------------------------------------------------------------------
: -12----12---------------------------------------------------------------------
: ------------------------------------------------------------------------------
: ------------------------------------------------------------------------------
: Verse: Clean Electric

: ----------------------------------------|-------------------------------------
: ----------------------------------------|-------------------------------------
: ----------------------------------------|-------------------------------------
: -22222222--55555555--00000000--77777777-|2-22222-0-00000-5-55555-7------------
: -22222222--55555555--00000000--77777777-|2-22222-0-00000-5-55555-7------------
: -22222222--55555555--00000000--77777777-|2-22222-0-00000-5-55555-7------------
: Chorus: Distortion

: ------------------------------------------------------------------------------
: ------------------------------------------------------------------------------
: -9\-999-7\-777----------------------------------------------------------------
: -9\-999-7\-777-5-555555-7-777777----------------------------------------------
: -7\-777-5\-555-5-555555-7-777777----------------------------------------------
: ---------------5-555555-7-777777----------------------------------------------
: Verse (3:17) Distortion (until 4:09, then go back to acoustic)

: -0-0-00-0-3-3-33-3-2-2-22-2-0-0-00-0------------------------------------------
: -0-0-00-0-3-3-33-3-3-3-33-3-2-2-22-2------------------------------------------
: -1-1-11-1-0-0-00-0-2-2-22-2-2-2-22-2------------------------------------------
: -2-2-22-2-0-0-00-0-0-0-00-0-2-2-22-2------------------------------------------
: -2-2-22-2-x-x-xx-x----------0-0-00-0------------------------------------------
: -0-0-00-0-3-3-33-3------------------------------------------------------------
: Chorus (4:22) acoustic
: any time just ask me for a song

Post new comment

The content of this field is kept private and will not be shown publicly.
CAPTCHA
This question is for testing whether you are a human visitor and to prevent automated spam submissions. Do not include any spaces in your answer.
Image CAPTCHA
Copy the characters (respecting upper/lower case) from the image.

Contact | Contents | Privacy Policy | Forum

This site is published by Hitsquad Pty Ltd. Copyright © 1999 - 2017 , All Rights Reserved.