Music from Desperado the movie?

Posted by Chris Bergstrom on Tue, 01/20/04 - 16:05:20.

I am looking for anyone who knows where to get tabs for the little diddy that Antonio Banderas was showing the little boy how to play. I think I am close. It seems like Em, G, Am to Em again. I don't know who copsed the music, but they should have included the songs in the movie on the soundtrck. I have listened to the part in the movie over a hundred times trying to get it perfect, but with the weird timing it makes it hard for me. That's why I am looking for tabs. I am learning flamenco guitar right now, but love mariachi solo guitar as well. Thanks, Chris

Comment viewing options

Select your preferred way to display the comments and click "Save settings" to activate your changes.

Re: Music from Desperado the movie?

:I listen,listen, listen, ..... Now if you plz send me the tab of this music I will be obliged . plz....

i made the tab! the song he teaches the little kid

Desperado- The song antonio teaches the little kid
By Victor Iglesias 11/3/04

This song is played in the same chords as the intro song.

basically its the chords of the song called

"Cancion Del Mariachi"

played on a nylon string guitar (not the one he plays in the movie)
i think.

but i know this tab i made sounds pretty damn good if you
play it right like the movie

(EADGBe)

( )- dont play, but you can if you want. (sounds better without.)

play very faintly
Em Am B7 Em Am B7
|------------------------2-3---0-|---------------------2-3----2---0---------|
|------------0-1--------0--0-----|---------0-1--------0--0------------------|
|----------------2-----2--(2)-2--|-------------2-----2--(2)-2---2-----------|
|--------(2)-1-2------1----------|-------2-1-2------1-----------------------|
|------(2)--------0--2-----------|-----2--------0--2------------------------|
|-0-3----------------------------|-0-3--------------------------------------|

play very faintly
Em Am B7 Em Am B7
|------------------------2-3---0-|-----------------(-------2-3----2---0)----|
|------------0-1--------0--0-----|---------0-1-----(------0--0---------)----|
|----------------2-----2--(2)-2--|-------------(2~)(-----2--(2)-2---2--)----|
|--------(2)-1-2------1----------|-------2-1-2-----(----1--------------)----|
|------(2)--------0--2-----------|-----2-----------(0--2---------------)----|
|-0-3----------------------------|-0-3-------------(-------------------)----|
^ ^
this is where is stops ^ ^

Send your comments to vdi_Sk8eR@yahoo.com.

Re: i made the tab! the song he teaches the little kid

the tab that you wrote is wrong and does not sound anything like what is played on the movie desperado!@@@@
: Desperado- The song antonio teaches the little kid
: By Victor Iglesias 11/3/04

: This song is played in the same chords as the intro song.

: basically its the chords of the song called

: "Cancion Del Mariachi"

: played on a nylon string guitar (not the one he plays in the movie)
: i think.

: but i know this tab i made sounds pretty damn good if you
: play it right like the movie

:
: (EADGBe)

:
: ( )- dont play, but you can if you want. (sounds better without.)

: play very faintly
: Em Am B7 Em Am B7
: |------------------------2-3---0-|---------------------2-3----2---0---------|
: |------------0-1--------0--0-----|---------0-1--------0--0------------------|
: |----------------2-----2--(2)-2--|-------------2-----2--(2)-2---2-----------|
: |--------(2)-1-2------1----------|-------2-1-2------1-----------------------|
: |------(2)--------0--2-----------|-----2--------0--2------------------------|
: |-0-3----------------------------|-0-3--------------------------------------|

: play very faintly
: Em Am B7 Em Am B7
: |------------------------2-3---0-|-----------------(-------2-3----2---0)----|
: |------------0-1--------0--0-----|---------0-1-----(------0--0---------)----|
: |----------------2-----2--(2)-2--|-------------(2~)(-----2--(2)-2---2--)----|
: |--------(2)-1-2------1----------|-------2-1-2-----(----1--------------)----|
: |------(2)--------0--2-----------|-----2-----------(0--2---------------)----|
: |-0-3----------------------------|-0-3-------------(-------------------)----|
: ^ ^
: this is where is stops ^ ^

: Send your comments to vdi_Sk8eR@yahoo.com.

Re: i made the tab! the song he teaches the little kid

ummm yeah... e-mail me if you want the better sructured tab. the format of the web page screwed it up on here. thanks and your welcome.

Re: i made the tab! the song he teaches the little kid

: ummm yeah... e-mail me if you want the better sructured tab. the format of the web page screwed it up on here. thanks and your welcome.

Re: i made the tab! the song he teaches the little kid

please some one send me the tab for the song that antonio bandares teaches the little kid in the movie Desperato. i got the movie soundtrake but it was not on there. anyone know a string by string tab please e-mail it to me.

tab

please could u send that tab to me please

Re: i made the tab! the song he teaches the little kid

hay iv been looking for that peice of music for ages plz send it to me as soon as u can thanx

Re: i made the tab! the song he teaches the little kid

just copy and paste the text into windows notepad and the format sorts itself out.

Re: i made the tab! the song he teaches the little kid

: hay iv been looking for that peice of music for ages too, plz send it to me as soon as u can thanx

Re: Music from Desperado the movie?

ive solved all your problems, http://www.cremesti.com/Cancion_Del_Mariachi.html there is the whole site about that song. solo tabs. english translation. all of it. e-mail your comments to me.

Re: Music from Desperado the movie?

: I am looking for anyone who knows where to get tabs for the little diddy that Antonio Banderas was showing the little boy how to play. I think I am close. It seems like Em, G, Am to Em again. I don't know who copsed the music, but they should have included the songs in the movie on the soundtrck. I have listened to the part in the movie over a hundred times trying to get it perfect, but with the weird timing it makes it hard for me. That's why I am looking for tabs. I am learning flamenco guitar right now, but love mariachi solo guitar as well. Thanks, Chris

Re: Music from Desperado the movie?

: : I am looking for anyone who knows where to get tabs for the little diddy that Antonio Banderas was showing the little boy how to play. I think I am close. It seems like Em, G, Am to Em again. I don't know who copsed the music, but they should have included the songs in the movie on the soundtrck. I have listened to the part in the movie over a hundred times trying to get it perfect, but with the weird timing it makes it hard for me. That's why I am looking for tabs. I am learning flamenco guitar right now, but love mariachi solo guitar as well. Thanks, Chris

does anyone no an good mexican patterns

i need to learn some mexican stuff got any tips or scale patterns or something

Re: Music from Desperado the movie?

Hi, I'm amazed cause that is exactly what I am looking for right now. After listening to the comentary on the dvd, the director Robert Rodriguez had said that Antonio Banderas can actually play the guitar and he , Robert Rodriguez,Tito Larriva and Los Lobos collaborated on the extra music on the film. So its probably a made up creation of one of theirs. I let you know if I find anything. Please let me know if you do!
Thanks!
Michele

Re: Music from Desperado the movie?

: Hi, I'm amazed cause that is exactly what I am looking for right now. After listening to the comentary on the dvd, the director Robert Rodriguez had said that Antonio Banderas can actually play the guitar and he , Robert Rodriguez,Tito Larriva and Los Lobos collaborated on the extra music on the film. So its probably a made up creation of one of theirs. I let you know if I find anything. Please let me know if you do!
: Thanks!
: Michele

Re: Music from Desperado the movie?

: : Hi, I'm amazed cause that is exactly what I am looking for right now. After listening to the comentary on the dvd, the director Robert Rodriguez had said that Antonio Banderas can actually play the guitar and he , Robert Rodriguez,Tito Larriva and Los Lobos collaborated on the extra music on the film. So its probably a made up creation of one of theirs. I let you know if I find anything. Please let me know if you do!
: : Thanks!
: : Michele

hey check out los lobos el mariachi hope you find.

HERE is the song

you all have been looking for the tabs more less that song from the movie desperado, the oenantoni banderas plays with the los lobos band
i listened to the song and camed to as close as the beginning on my acoustic as possible. to play it 100% correct use a spanish guitar

capo on the first fret
standard tuning

intro
-------0-0---0-0---0-0------------------------
-------0-0-1-0-0-1-0-0-0-0-----0-0-1-0-0-1-0-0
-------0-0---0-0---0-0---2-----2-2---2-2---2-2
-----2-------------------1---1-1-1---1-1---1-1
---2---------------------2--2--2-2---2-2---2-2
-0-----------------------0-0------------------

----------------------------------
---0------------------------------
-0-0------------------------------
---2------------------------------
---2------------------------------
---0------------------------------

play twice
then play

-0-0-0-0--------------------------
-1-1-1-1--0-0--0-0-0-0--0-0-------
-2-2-2-2--0-0--2-2-2-2--0-0-------
-2-2-2-2--2-2--1-1-1-1--2-2-------
-0-0-0-0--2-2--2-2-2-2--2-2-------
----------0-0--0-0-0-0--0-0-------

sorry about the solo
but make up ur own

I think I found it people!

Hey people! I was also looking for the tune and I couldn't find anything...but now I've figured it out myself this morning. Here are my tabs:
022000 (Em)
002210 (Am)
x21201 (?)
022000 (Em)

And as for the melody, it goes something like this:
+ . + + . . + . / + . + . . . . . /
E e g b c a

/ + . + + . + + . / + . . + . . + . /
b d# a b f g f# e

Do you guys own a capo? If you do, put the capo on the 1st fret.
Well, enjoy yourselves...!
xxxx Tessie

Re: I think I found it people!

Hey guys,
I play it like this:
022000 (Em)
002210 (Am)
021200 (?)
022000 (Em)
With no cappo and I'm pretty sure that is how it is played in the movie. I also have watched the part a million times and am pretty sure that is the shit. However, there is some wierd fingerpicking involved and I have no idea how it goes.
If anyone can find the proper way of playing it I'd be gratefull.
Thomas

Re: I think I found it people!

: Hey guys,
: I play it like this:
: 022000 (Em)
: 002210 (Am)
: 021200 (B7)
: 022000 (Em)
: With no cappo and I'm pretty sure that is how it is played in the movie. I also have watched the part a million times and am pretty sure that is the shit. However, there is some wierd fingerpicking involved and I have no idea how it goes.
: If anyone can find the proper way of playing it I'd be gratefull.
: Thomas

Sorry but i don't under stand how to play the song

Hello guys. We seem to be in love with the same thing.
I would like to know how to play the song. Can't anyone good that understands this: (make a good tab of it)
+ . + + . . + . / + . + . . . . . /
E e g b c a

/ + . + + . + + . / + . . + . . + . /
b d# a b f g f# e

thanks Arian

Post new comment

The content of this field is kept private and will not be shown publicly.
CAPTCHA
This question is for testing whether you are a human visitor and to prevent automated spam submissions. Do not include any spaces in your answer.
Image CAPTCHA
Copy the characters (respecting upper/lower case) from the image.

Contact | Advertise | Contents | Privacy Policy | Forum

This site is published by Hitsquad Pty Ltd. Copyright © 1999 - 2017 , All Rights Reserved.