Guitar Discussion Forum Archive - January, 2000

Advertisement

Archive for posts from January, 2000



[ Archive: June 2000 Discussions Available Here ]
[ Archive: May 2000 Discussions Available Here ]
[ Archive: April 2000 Discussions Available Here ]
[ Archive: 1999 Discussions Available Here ]

Comment viewing options

Select your preferred way to display the comments and click "Save settings" to activate your changes.

E-Media guitar method 1 crack

[The body of this post has been reconstituted from replies so it may differ from what was originally written.]

I'm just starting to play guitar any one know of a place i can find a crack for it...i buy the thing...then on the cd i have to pay an extra 29 $ to upgrade...nah! I'll find the crack :)

Sleep Walk tuning

[The body of this post has been reconstituted from replies so it may differ from what was originally written.]

Can anyone give me the tabs to "Sleep Walk"by Santo & Johnny?

Re: Sleep Walk tuning

Can anyone give me the guitar tabs to "Sleep Walk"by Santo & Johnny?

Re: Sleep Walk tabs

Can anyone give me the guitar tabs to "Sleep Walk"by Santo & Johnny?

Re: Sleep Walk tabs

: Can anyone give me the guitar tabs to "Sleep Walk"by Santo & Johnny?

Re: Sleep Walk tabs

when you get it please send it to me too

Re: Sleep Walk tabs

: : Can anyone give me the guitar tabs to "Sleep Walk"by Santo & Johnny?

Re: Sleep Walk tabs

: : : Can anyone give me the guitar tabs to "Sleep Walk"by Santo & Johnny?

undefined
More...

[Close]

[Close]

undefined

Subject: TAB: Sleepwalk(Larry Carlton)
From: spencerl@crl.com (Spencer Low)
Date: 1996/03/23
Message-Id: <4j1sk1$o20@crl3.crl.com>
Newsgroups: alt.guitar.tab,rec.music.makers.guitar.tablature
Here's the melody line for Sleepwalk as covered by Larry Carlton.
Since the original was played on lap steel or some type of slide
guitar you can try to mimic the sound with well controlled bends
or whammy bar action. This tab is just meant to be a starting
point, so have fun with it. I have notated certain repeated
parts of the melody line differently just to suggest alternate
fingerings. You just have to work it out to the liking of your
ears. I used |'s across the neck to denote the endof a section,
otherwise a single /= slide up to the note.

Sleepwalk(Santos and Johnny covered by Larry Carlton)
Tab by E. Low
C Am Fm G
e---------------------------------------------------------------------
B-12b13-----------------------12b13p8---------------------------------
G-------11b12-10-12b13r12-10-----------10-12b13r12-10-12-9-12-9-------
D----------------------------------------------------------------10---
A-------------------------------------------------------------------12
E---------------------------------------------------------------------
e--------------|------------------------------------------------------
B--------------|-12b13p8-----------------12b13-13-15b17-13-15b17-13---
G-------9-9----|---------10-12b13-12-10-----------------------------12
D-10-10-----10-|------------------------------------------------------
A--------------|------------------------------------------------------
E--------------|------------------------------------------------------
e---------------------------------------------------------|-----------
B---------------------------------------------------------|-------10--
G-10-12b13-12-10-12-----12-14----12----------------9-9----|-----------
D-------------------/14-------14----14-------10-10-----10-|-10-10-----
A--------------------------------------15-12--------------|-----------
E---------------------------------------------------------|-----------
e----------------------------12-10------------------------------------
B--15b1715-15b17-15-13-------------13---------------------------------
G----------------------13-13----------12-------12b14-12b14-12---------
D----------------------------------------14-15----------------14-15---
A---------------------------------------------------------------------
E---------------------------------------------------------------------
e------------------------------------13-15-------------------12-10---
B------------------------------15b17-------15b17-15-13-------------13
G-12h14p12--------------/14-14-------------------------13-13---------
D----------10h12p10s9h10---------------------------------------------
A--------------------------------------------------------------------
E--------------------------------------------------------------------
e--------------------------------------------------------------------
B--------------------------------------------------------------------
G-12-------12b14-12b14-12-------12h14p12---------------/14-14--------
D----14-15----------------14-15----------10h12p10s9h10---------------
A--------------------------------------------------------------------
E--------------------------------------------------------------------
e-------13-15-------------------12-10--------------------------------|
B-15b17-------15b17-15-13-------------13-----------------------------|
G-------------------------13-13----------12--12-12-14b15-14b15-14-12-|
D--------------------------------------------------------------------|
A--------------------------------------------------------------------|
E--------------------------------------------------------------------|
e--------------------------------------------------------------------
B-12b13-------------------------12b13p8------------------------------
G-------11b12---10-12b13r12-10-----------10-12b13r12-10-12-9-12-9----
D-----------------------------------------------------------------10-
A--------------------------------------------------------------------
E--------------------------------------------------------------------
e--------------------|
B--------------------|
G-------------9-9----|
D-10---10-10------10-|
A----12--------------|
E--------------------|

Hope you like the tab! It's a classic melody to my ears. Eddie

Re: Sleep Walk tabs

: : Can anyone give me the guitar tabs to "Sleep Walk"by Santo & Johnny?

I need it for a funeral that will take place soon.
M.C.

Re: Sleep Walk tuning

: Can anyone give me the lap steel tuning to "Sleep Walk"by Santo & Johnny?

Westwood Guitars

Westwood Guitars

This popular thread has been given its own page : Westwood Guitars

Scales,scales my teacher says it will help make me a good Guitaris?

[The body of this post has been reconstituted from replies so it may differ from what was originally written.]

But I want to do Songs,is he right,Should I just chil.

Tips for Newbie,What should I work hard on to become good?

[The body of this post has been reconstituted from replies so it may differ from what was originally written.]

I want to do Funk/Rock Guitar.

Re: Tips for Newbie,What should I work hard on to become good?

: I want to do Funk/Rock Guitar.

Mute the strings on your guitar and stum 'em in time with the beat, improvise when you press the strings down, Ive found that a good technique when practicing funk.

AC/dc Tabs???

[The body of this post has been reconstituted from replies so it may differ from what was originally written.]

Hello
Im abig AC/DC fan and need Tabs
Please send me a Mail if You Know a Good Site
Thanks

guitar combo

[The body of this post has been reconstituted from replies so it may differ from what was originally written.]

Hi!
I'm a composer and I'm looking for a tube guitar combo for my home studio. Beeing in Louxembourg recently, I saw very nice little one, named ATT Little Willie. The salesman said it's German handmade. The sound was perfect, but it had not gain control, just volume, without strong overload. Does anyone know something about this thing?

Re: guitar combo

: Hi!
: I'm a composer and I'm looking for a tube guitar combo for my home studio. Beeing in Louxembourg recently, I saw very nice little one, named ATT Little Willie. The salesman said it's German handmade. The sound was perfect, but it had not gain control, just volume, without strong overload. Does anyone know something about this thing?

Hi
I`ve the ATT Little Willie Combo. It has two channels: one for the clean sound and one for the overdrive sound. And it has also a gain control.

Re: guitar combo

Hello Lev,

I own a Little Willie 30 Watt Rock Head with Gain Control and lots of Overdrive (no Metal though!). These Amps are in fact handmade in Germany by two friendly guys named Erkel & Kopp and I strongly recommend them! The Amps all use Class A circuity and sound absolutely fantastic! Also the best Quality available (hand wired). They are extra rare since the Production was stopped last year (website shut down!)and I will propybly buy some others if I find some. In some weeks I will be the proud owner of the last Micro Willie (5 Watt!) ever built (especially for me from the last spare parts!). If you like the sound, go ahead-buy it! It doesn't get any better than this!

Can someone tell my why certain notes are out of tune?

[The body of this post has been reconstituted from replies so it may differ from what was originally written.]

Hi,
I just bought a Seagull S6 Cedar last week and I've noticed that low G sounds sharp when I play it. F# sounds sharp, too. But the E string is in tune. I've checked it with an electronic tuner and I have no idea why it's like this. I thought the fret might be out of place, but low C sounds ok to me.
Any ideas?
Mike

Re: Can someone tell my why certain notes are out of tune?

: Hi,

: I just bought a Seagull S6 Cedar last week and I've noticed that low G sounds sharp when I play it. F# sounds sharp, too. But the E string is in tune. I've checked it with an electronic tuner and I have no idea why it's like this. I thought the fret might be out of place, but low C sounds ok to me.

: Any ideas?

: Mike

Hello Mike,

I learned that the problem has been inherent
since the creation of the guitar. There is a company
that just started up called Earvana.com that makes an
adjustable staggered nut that solves this tuning bum-mer between open and fretted chords. Their cost is
surprisingly reasonable and I suggest you log on to
their website. Good luck.

Re: Gibson S-1 for sale

 Gibson S-1 for sale

This popular thread has been given its own page : Re: Gibson S-1 for sale

Re: free download hindi songs

: i want free download hindi songs

Re: Zoom GFX707 patches

: Does anyone know of any good sites that list GFX707 patches other than www.venus.spaceports.com/~gfx707/?

Re: Zoom GFX707 patches

: Does anyone know of any good sites that list GFX707 patches?

Yes, try www.venus.spaceports.com
I think you'll like it

Re: Zoom GFX707 patches

Hello My name is Luca And I have the zoom Gfx-707 and i have one problem that no one can seem to solve for me.I want to put an aucoustic effect on it and the manual shows me how but i just dont get it. The acoustic simulater im trying to get is "ACOSIM" I was wondering if you could please give some guidence on how to get this effect.

Thank you so much for your time
Luca

Re: guitar acords for Nirvana

: : i need some acors for guitara from Nirvana

Re: guitar acords for Nirvana

: : i need some acors for a acoustic guitar from Nirvana

Re: free band-in-a-box download!

: download free band-in-a-box! go to

: www.groups.yahoo.com/group/biabfsg

Re: free band-in-a-box download!

: : download free band-in-a-box! go to

: : www.groups.yahoo.com/group/biabfsg

Re: free band-in-a-box download!

: : : download free band-in-a-box! go to

: : : www.groups.yahoo.com/group/biabfsg

Re: free band-in-a-box download!

:dd

Re: to download free hindi vedio songs

: : : : : : : and hindi video clips
: : : : : i want vedio of chunari chunari song from MONSOON WEDDING Urgently.PLEASE

Re: Zoom GFX707 patches

I apologise for my error on the URL address
It is
www.venus.spaceports.com/~gfx707/
this will work now,
Martin

Zoom 505 II patches

: : Does anyone know of any good sites that list zoom 505 II patches?

: did you try :http://www.venus.spacesports.com/~gfx707/ ?

Re: Zoom GFX707 patches

I got one, but not so good as this one.....but you should try
http://www.gfx707.com

Re: Zoom GFX707 patches

: : I have the same question and the URL below doesn't exist. Any other ideas? I've figured out some songs sound effects and matched them to the 707 but would love a central site...

: : : Does anyone know of any good sites that list GFX707 patches?

: : : did you try :http://www.venus.spacesports.com/~gfx707/ ?

: try instead http://www.venus.spaceports.com/~gfx707/

: There was an extra "s" in the first address

: The above site has moved and the advertised url is wrong. Does anyone know the working url?

Re: Zoom GFX707 patches

: I have the same question and the URL below doesn't exist. Any other ideas? I've figured out some songs sound effects and matched them to the 707 but would love a central site...

: Yes, try www.gfx.curvedspaces.com. They have over 100 patches ~ Charles

: : Does anyone know of any good sites that list GFX707 patches?

: : did you try :http://www.venus.spacesports.com/~gfx707/ ?

Re: to download free hindi vedio songs

: : : : : : : and hindi video clips
: : : : : i want audio songs of yuva hindi movie

Re: to download free hindi vedio songs

: : : : : : : : and hindi video clips
: : : : : : i want audio songs of dhoom hindi movie

Re: free downloadable new hindi film songs

: : : : : hello sir
: : : : : i want free downloadable new hindi film songs

Re: Chavel / Jackson mystery / question

 Chavel / Jackson mystery / question

This popular thread has been given its own page : Re: Chavel / Jackson mystery / question

Re: Chavel / Jackson mystery / question

Your Guitar is a Model 650XL from the pro series. It was made in 1989.

Re: Need info on Parker P40!!!!

 Need info on Parker P40!!!!

This popular thread has been given its own page : Re: Need info on Parker P40!!!!

Re: minta chord lagu

: minta chord lagu creed (don't stop dancing)dan (lullaby)

Re: Rogue Amps

NO, THEY ARE ALL HORRIBLE AMPS, THE SPEAKERS ARE SHIT AND THE WIRRERING IS ALL WRONG. DO NOT BUY THEM

Re: sir!i want new hindi free downloadable songs!!!!!!!!!!

: : hello sir,
: : i want brand new absolutely free downloadable hindi songs.

here's the site

u want free dloadable songs....here's da site
"www.abhishek4.com"

Re: learning bass tab

: Whats a good site that i can easily learn to read bass tab?

Re: BC Rich Warlock bass 5 -- I NEED IT --- Hungary

We all need something

Re: tom delonge jagmaster?

: hi,i was recently at a blink 182 concert(after tom delonges endorsment by gibson)and a saw him still playing a fender,it was a white"jagmaster"type of guitar with the fender style peg-head do you know ehere i could get any information on this new guitar.
: thanx owen

Reply: www.fender.com

Post new comment

The content of this field is kept private and will not be shown publicly.
CAPTCHA
This question is for testing whether you are a human visitor and to prevent automated spam submissions. Do not include any spaces in your answer.
Image CAPTCHA
Copy the characters (respecting upper/lower case) from the image.

Contact | Advertise | Contents | Privacy Policy

This site is published by Hitsquad Pty Ltd. Copyright © 1999 - 2014 , All Rights Reserved.